Matt Corby - Sooth Lady Wine Chords

Matt Corby - Sooth Lady Wine Chords

Intro:

G  Bm Bbm Am  C  D 


e|---------------------------------------------------------------------------|
B|---------------------------------------------------------------------------|
G|--9---9p7---7--------------------------------------------------------------|
D|----------9---9---9------7-7------7----------------------------------------|
A|---------------------10------7-5----5/6/7----------------------------------|
E|---------------------------------------------------------------------------|



                       Em
You sold me out to the man (to the man, to the man)
                 G
With the nuclear plan in his hands

But he don't understand
     D                         Am
The free world, and it's demands


G  Bm Bbm Am  C  D 


         Em
Oh we're lost
       G
Get together
             D
Get to the seventh state
                  Am
With you; want tomorrow's ideas
         G
I am more than terrified to care
            Bm
Somnolence
               Bbm      Am        C     D
I'm bound to you all day


                       Em
You sold me out to the man (to the man, to the man)
                 G
With the nuclear plant in his hands

But he don't understand
     D                         Am
The free world, and it's demand


G  Bm Bbm Am  C  D 


             Em
If you feel alright

Let yourself dance
          G
Don't sit out tonight
          D
If you feel the right
            
Get off your phone
         Am
Take it in tonight
        G
If you see the light

Don't turn away
       Bm  
It's reality
    Bbm  Am
With no fear inside
                         C 
We can begin to feel the happiness
D          Em
Sooth lady wine

Reconcile
                    G
Not in the way that I know you might
D
One new battle two new battle
                  Am
Try for something new
            G                      Bm
I want it so long to write it down
           Bbm      Am    
For no one to decode

C     D    Em   G   D   Am 

e|---------------------------------------------------------------------------|
B|---------------------------------------------------------------------------|
G|--9---9p7---7--------------------------------------------------------------|
D|----------9---9---9------7-7------7----------------------------------------|
A|---------------------10------7-5----5/6/7----------------------------------|
E|---------------------------------------------------------------------------|

e|---------------------------------------------------------------------------|
B|------------------7--------------------------------------------------------|
G|--9---9p7---7--------7/9-9-------9-----------------------------------------|
D|----------9---9------------9--7----7-9-------------------------------------|
A|---------------------------------------------------------------------------|
E|---------------------------------------------------------------------------|

e|---------------------------------------------------------------------------|
B|---------------------------------------------------------------------------|
G|--9---9p7---7--------------------------------------------------------------|
D|----------9---9---9------7-7------7----------------------------------------|
A|---------------------10------7-5----5/6/7----------------------------------|
E|---------------------------------------------------------------------------|
       G
If you feel alright

Let yourself dance
          Bm
Don't sit out tonight
   Bbm   Am
If you feel alright

Get off your phone
        C         
Take it in tonight
D       Em
If you see the light

Don't turn away
     G
It's reality
        D
With no fear inside
                         Am           Em
We can begin to feel the happiness...

0 comments: