The Staves - Let Me Down Chords

The Staves - Let Me Down Chords

Capo 7

G

E|---------------------------------------|
B|---0-0-0-0-0-0-0-0-0-0-0-0-0-0-0-------|
G|---0-4-0-0-0-0-4-0-0-0-0-4-0-0-4-0-0-0-|
D|---------------------------------------|
A|---------------------------------------|
E|--3-3-3-3-3-3-3-3-3-3-3-3-3-3-3-3-3-3--|

C

E|---------------------------------------|
B|---0-0-0-0-0-0-0-0-0-0-0-0-0-0-0-------|
G|---0-4-0-0-0-0-4-0-0-0-0-4-0-0-4-0-0-0-|
D|---------------------------------------|
A|--3-3-3-3-3-3-3-3-3-3-3-3-3-3-3-3-3-3--|
E|---------------------------------------|


[Intro]

G  C


[Verse 1]

G
I know you, I need you
                          C
I had you, did I let you down?
G
You come and you go
                        C
I wait but never really know, mhm did I ever know?


[Pre-chorus]
             G
Don't let me down
                 C
Don't you let me down


[Chorus]
A      G   A                 G
On and on, even the good die young
F#m    G     F#m                   G
Heavy hands, scupper the best laid plans
A      G   A                G 
On and on, ever the foolish one
    C                                                        
Who says what he wants but he wants what he can't understand


[Instrumental]

G  C


[Verse 2]

G
Unfolding, strung out
                               C
I'm holding on, you're holding out (mhmm)
G
Don't kiss me, don't lie 
                             C 
You ask for freedom then you cry, oh did I ever lie?


[Pre-chorus]
             G
Don't let me down
                 C
Don't you let me down


[Chorus]

A      G   A                 G       
On and on, even the good die young
F#m    G     F#m                   G   
Heavy hands, scupper the best laid plans
A      G   A                G
On and on, ever the foolish one
C
Who says what he wants but he wants what he can't understand

G


[Outro]

N.C.
Don't let me down,
N.C.
Don't let me down.
N.C.
Don't let me down,
N.C.
Don't you let me down.
N.C.
Don't let me down,
N.C.
Don't let me down.

0 comments: