Nothing - The Dead Are Dumb Chords

Nothing - The Dead Are Dumb Chords

Tuning: Standard


                                                            slow upward strum
e|----------------------------------|--|---------------------0------------|
B|----------------------------------|--|----------------------0-----------|
G|----------------------------------|x3|-----------------------0----------|
D|----------------------------------|--|------------------------2---------|
A|----------------------------------|--|-------------------------2--------|
E|-3------3-5----7------0-----------|--|-3-------3-5----7---------0-------|



G             Em
Always try to keep up
G              Em
Always fall behind
G           Em
Belly pains and headaches
  G         Em
Inside you

C                   G
Isn’t it quite the same
C                    G
And isn’t it such a shame
C                 Em
Too heavy for the lightness
    D                 C
But weightless in the rain
                  D
All our words are wasted

[Intro]

G           Em
Never fails to fail me
G           Em
Never say never
G              Em   
Loathing phase self-inflicted pain
    G             Em
I’d never oh, I’d never

C                   G
Isn’t it quite the same
C                    G
And isn’t it such a shame
C                 Em
Too heavy for the lightness
    D                 C
But weightless in the rain
                  D
All our words are wasted


Em         G          x4
[Solo]
e|-------------------------------------------------|----------------------------------------------------|
B|-7-7-7-5-5-5-------------------------------------|-7-7-7-5-5-5----------------------------------------|
G|-------------7-7-7-5-5-5-4-2-4-5-4---2-4-2-4-5-4-|-------------7-7-7-5-5-5-4-2-4-5-4---4-4---4s2-0----|
D|-------------------------------------------------|----------------------------------------------------|
A|-------------------------------------------------|----------------------------------------------------|
E|-------------------------------------------------|----------------------------------------------------|

e|-----------------------------------------------------|------------------------------------------------|
B|----------------------------------------12-----------|-12----------------------------15---------------|
G|------7-9-11---9-11-12--11-12-14--12-14-14^fb--12----|-14^fb-----12---12-11-12------------------------|
D|--7-9------------------------------------------------|------------------------------------------------|
A|-----------------------------------------------------|------------------------------------------------|
E|-----------------------------------------------------|------------------------------------------------|

C                   G
Isn’t it quite the same
C                    G
And isn’t it such a shame
C                 Em
Too heavy for the lightness          x2
    D                 C
But weightless in the rain
                  D
All our words are wasted

0 comments: