Green Day - Revolution Radio Chords

Green Day - Revolution Radio Chords

Chords:

A : 533xxx or x022xx
F : 311xxx or x8 10 10 xx
Dm and D : x577xx
G : 355xxx
C : x355xx 
F#m : 244xxx
E : 022xxx or x799xx

[Intro]

e|-----------------------------------------------|
B|-10-10-----10-10-----------10----12-10---------|
G|-------9-9-------9-10-10-10----10-------10-10--|
D|-----------------------------------------------|
A|-----------------------------------------------|
E|-----------------------------------------------|

A F (x4)
  
[Verse 1] 

A              D               A             Dm      A
Stay with your hands up in the sky, like you want to testify
        D                G       E
For the life that's been deleted 
A           D            A
Sing like a rebel's lullaby
   Dm               A                D                    G       E
Under the stars and stripes, for the lost souls that were cheated
F                          E
We will be seen but not be heard

[Chorus]

        A  
We are, revolution radio
F#m
Operation no control
        D         G                A     D
And the headline, my love's bullet proof
         A
Give me cherry bombs and gasoline
F#m
Debutantes in surgery
        D         F
And the headline, legalize the truth

A F G C (x2)

[Verse 2]
        A                 D               A
Give me rage like there's tear gas in the crowd
       Dm               A             D             G       E
Do you want to live out loud, but the air is barely breathing
A             D                 A
Lies, all the slums to the obsolete
    Dm                  A            D           G     E
The dawn of the new airwaves for the anti-social media

[Chorus]

        A  
We are, revolution radio
F#m
Operation no control
        D         G                A     D
And the headline, my love's bullet proof
         A
Give me cherry bombs and gasoline
F#m
Debutantes in surgery
        D         F
And the headline, legalize the truth

[SOLO]

A F G C (x4) + Bass solo

Chords:

A F#m D G A  ... G
A F#m D G

The solo is played with octaves and uses the medley of the chorus

e|---------------------------------------------------------------------------------------|
B|------------------------------------------------------10-10-----10-10-----10-10-----10-|
G|-9-----------------11-------------------9-7-9-7---9-9-------9-9-------9-9-------9-9----|
D|---11-11-9-7-9-11-----11-11-9-7-9-11-11------------------------------------------------|
A|-7-----------------09-------------------7-5-7-8----------------------------------------|
E|---09-09-7-5-7-09-----09-09-7-5-7-09-09---------3--------------------------------------|

e|--------------------------------------------------|
B|--------------------------------------------------|
G|-9-----------------11-------11-11-13-11-9-7-9-7---|
D|---11-11-9-7-9-11-----11-11-----------------------|
A|-7-----------------09-------09-09-11-09-7-5-7-8---|
E|---09-09-7-5-7-09-----09-09---------------------3-|

[Bridge]

F                          E
We will be seen but not be heard
F                          E
We are the songs of the disturbed

[Chorus]

        A  
We are, revolution radio
F#m
Operation no control
        D         G                A     D
And the headline, my love's bullet proof
         A
Give me cherry bombs and gasoline
F#m
Debutantes in surgery
        D         F
And the headline, legalize the truth

[Outro]

A F (x3)

A F G C A

0 comments: