How Come The Good Die Young Chords by Douwe Bob

How Come The Good Die Young Chords by Douwe Bob

[Intro]
    G
d|---0--------0----0-------|-------------------------|
b|---0--0h1---1----0-------|-------------------------|
G|---0--------0----0-------|-------------------------|
D|---0--0h2---2----0-------|-------------------------|
G|---0--------0----0-------|-------------------------|
E|--(3)-(3)---3----3-------|-------------------------|

[ Part 1] ....I will let it all..
    G          Em
d|---0----------0----------|--0-----------0----------|
b|---0----------0----------|--0-----------0----------|
G|---0----------0----------|--0-----------0----------|
D|---0----------2----------|--0-----------2----------|
G|---0----------4----------|--0-----------4----------|
E|--(3)---------0----------|--3-----------0----------|x2
... I will dance..
    G/C

d|---0---------------------|--0-------0----------0---|
b|---1---------------------|--0-----0h1----------0---|
G|---0---------------------|--0-------0----------0-- |
D|---2---------------------|--0-----0h2----------0---|
G|---0---------------------|--0-------0----------0---|
E|---x-------------------- |--3------------------3---|

[part 2] ..and as long as I live..
    C                         G
d|-------------------------|--0-------0----------0---|
b|---0---------------------|--0-----0h1----------0---|
G|---0---------------------|--0-------0----------0-- |
D|---5---------------------|--0-----0h2----------0---|
G|---5---------------------|--0-------0----------0---|
E|---x-------------------- |--3------------------3---|
[Part 3]
..And we spread our wings..
     C          D             G
d|-------------------------|--0-------0----------0---|
b|---0-----------0---------|--0-----0h1----------0---|
G|---0-----------0---------|--0-------0----------0-- |
D|---5---------/-7---------|--0-----0h2----------0---|
G|---5---------/-7---------|--0-------0----------0---|
E|---x-----------x---------|--3------------------3---|





[Intro]

I'll make sure my days last long
raise my glass and sing a drinking song
and all this talk about right and wrong

[Verse 1]
G              Em
I will let it all hang out
G              Em
Rain over this land of drought
 G/C                            G
And I will dance and I will shout


[Verse 2]

C                                                    G
For as long as I live I will not forgive their treachery
C                                                              G
And as long as I have teeth i will bite the fucking hand that feeds me

[Pre-chorus]

Em                                                               G
And it's a shame, such a shame you got lost inside this dead mans ditch
Em                                                            G 
And it's a game of live and die when you run across a burning bridge

[Chorus]
               C           D           G
paradise, and we spread our wings and crash
           C                           D                          G
Though you know when we get high they start cutting the tall tall grass

[Pre-chorus]

Em                                                               G
And its a shame, such a shame you got stuck inside this blind man's pit
Em                                                                              G 
And its a game of win and lose, for hollow fools make all the rules based on shit

[Chorus]
       C                     D                            G
As we cry there, lie to the sun. how come the good die young
           C                         D                          G
And as we lie there, crying to the sun, how come the good die young


[Intro]

I will let it all hang out
Rain over this land of drought  
                                   G
And I will dance and I will shout

[Verse 1]
G                  Em
I'll make sure my days last long
G                           Em
raise my glass and sing a drinking song
G/C                                    G
and all this talk about right and wrong


[Outro]
     C        D          G
How come the good die young x3

0 comments: