Little Things Chords by Dave Berry

Little Things Chords by Dave Berry

INTRO/RIFF: 
-------------------------------------------|
-------------------------------------------|
-----0-----------0---------0---------0-----|
--2-------0-1-2-----0-1-2-----0-1-2--------|
-------2--------2---------2----------------|
-------------------------------------------|

#1.
       E               Db7         Gb          B
Little things that you do, make me glad I'm in love with you,
       E               Db7         Gb          B
little things that you say make me glad that I feel this way.
            A                           E
The way you smile...the way you hold my hand,
             A                          B
and when I'm down, you tell me I'm your man. 
B7
You know I love those...

#2.
       E            Db7          Gb               B
Little things in my ear that you say when there's no one near,
       E               Db7       Gb             B
little things that you do let me know that your love is true.
        A                         E
When we walk, you like to hold my hand,
            A                          B
and when we talk, you tell me I'm your man.

CHORUS:
B7                           G             Em
You know I love those little things that I hear,
           G                        Em
the little things you whisper in my ear.
             C                      D
I know there ain't nobody else like you,
             C                        D   B
no one could do the little things you do..ooo.

RIFF:
-------------------------------------------|
-------------------------------------------|
-----0---------0----------0---------0------|
--2------0-1-2-----0-1-2-----0-1-2---------|
-------2--------2--------2-----------------|
-------------------------------------------|

#3.
       E               Db7         Gb          B
Little things that you do, make me glad I'm in love with you,
       E               Db7         Gb          B
little things that you say make me glad that I feel this way.
            A                          E
The way you smile, the way you hold my hand,
             A                          B
and when I'm down, you tell me I'm your man.

CHORUS:
B7                           G             Em
You know I love those little things that I hear,
           G                        Em
the little things you whisper in my ear.
             C                      D
I know there ain't nobody else like you,
             C                        D   B
no one could do the little things you do..ooo.

OUTRO:RIFF:
-------------------------------------------|
-------------------------------------------|
-----0-----------0---------0---------------|
--2-------0-1-2------0-1-2-------1-2-(end)-|
-------2--------2----------2---------------|
-------------------------------------------|

0 comments: