Alles Gute Chords by Faber

Alles Gute Chords by Faber

   Am                                    C  
   t   ^ v  t   ^ v   t  ^ v  t   ^ v    t   ^ v  t   ^ v   t  ^ v  t   ^ v
e|-----0-0------0-0------0-0------0-0--|-----0-0------0-0------0-0------0-0-----|
B|-----1-1------1-1------1-1------1-1--|-----1-1------1-1------1-1------1-1-----|
G|-----2-2------2-2------2-2------2-2--|-----0-0------0-0------0-0------0-0-----|
D|----------0h2------------------------|----------0h2---------------0h2---------|
A|-0-----------------0--------0h2------|-3-----------------3--------------------|
E|-------------------------------------|----------------------------------------|

   Em                                    D
   t   ^ v  t   ^ v  t   ^ v  t   ^ v    t   ^ v  t   ^ v  t   ^ v   t   ^ v 
e|-----0-0------0-0------0-0------0-0--|-----2-2------2-2------2-2-------2-2----|
B|-----0-0------0-0------0-0------0-0--|-----3-3------3-3------3-3-------3-3----|
G|-----0-0------0-0------0-0------0-0--|-----2-2------2-2------2-2-------2-2----|
D|----------0h2---------------0h2------|-0-----------------0--------------------|
A|-------------------------------------|----------0------------------0----------|
E|-0-----------------0-----------------|----------------------------------------|

[Intro] 

Am C Em D (Strum once)

[VERSE]

                              Am        C
Weil du dir meistens nicht gefällst
                       Em        D
Und du tanzt wie ein Pferd
                     Am
Und du nur daneben stehst
                 C                             Em      D
Und dir oft überlegst, wie du gern wärst oder wer
             Am       C   
Und wenn du merkst
                   Em       D    
dass dich niemand versteht
             Am                                 C                     Em        D (Strum twice)
Und wenn du meinst dass wenn du weinst und du flehst sich niemand umdreht

[CHORUS]
                 Am
Wenn du dann am Boden bist
                C
weißt du wo du hin gehörst
                Em
Wenn du ganz alleine bist
                 D
weißt du was du warst
                 Am
Wenn du dann am Boden bist
                C
weißt du wo du hin gehörst
                Em
Wenn du ganz alleine bist
                 D (Strum once)     Am       C     Em    D               Am C Em 
Weißt du dass du es noch so lange sein wirst                  Alles Gute 

[BRIDGE]

D (Strum once)             Am
   Mit dem Rücken zur Wand
C                            Em
   Hältst du dir selber die Hand
D                              Am
   Und gehst nachts durch die Welt
C                                 Em      D (Strum once and mute)
   Schreibst deinen Namen in den Sand

[CHORUS]
                 Am
Wenn du dann am Boden bist
                C
weißt du wo du hin gehörst
                Em
Wenn du ganz alleine bist
                 D
weißt du was du warst
                 Am
Wenn du dann am Boden bist
                C
weißt du wo du hin gehörst
                Em
Wenn du ganz alleine bist
                 D (Strum once)     Am       C     Em    D               Am C Em D (Strum once)
Weißt du dass du es noch so lange sein wirst                  Alles Gute 

[VERSE]*
                              Am
Du gehst am liebsten mit dir aus
                        C/B**  C
Kennst dich mit dir am besten aus
                            Em
Wenn du dich dann nachts berührst
                    D
und du deine Nähe spürst
                           Am
Denn du weißt wie's dir gefällt
                      C                                   Em
wie du es dir machst macht es dir niemand auf der ganzen Welt
                       D
Manche meinen es sei traurig du sagst zurecht
   Am
schau dich doch mal um
 C                    Em
zeig mir einen dem es besser geht als mir
        D 
besser geht als mir

[CHORUS]
                 Am
Wenn du dann am Boden bist
                C
weißt du wo du hin gehörst
                Em
Wenn du ganz alleine bist
                 D
weißt du was du warst
                 Am
Wenn du dann am Boden bist
                C
weißt du wo du hin gehörst
                Em
Wenn du ganz alleine bist
                 D                  Am       C     Em    D    
Weißt du dass du es noch so lange sein wirst                  
                 Am
Wenn du dann am Boden bist
                C
weißt du wo du hin gehörst
                Em
Wenn du ganz alleine bist
                 D
weißt du was du warst
                 Am
Wenn du dann am Boden bist
                C
weißt du wo du hin gehörst
                Em
Wenn du ganz alleine bist
                 D (Strum once)     Am       C     
Weißt du dass du es noch so lange sein wirst         
Em        D         
   Alles Gute    
Am    Em (Strum once)  
Alles Gute

0 comments: