Darlin Chords by Dave Barnes

Darlin Chords by Dave Barnes

INTRO:
    
  F#                   B             F#                                               
E --9-11-9----|-9-11-9-------------------------
B ---------11-|--------7-9-7--7h9p7------11-7--
G ------------|---------------------8-6--------
D ------------|--------------------------------
A ------------|--------------------------------
E ------------|--------------------------------
  
   Db Ebm E      Db F# 
E ----------4h6p4------------
B -2--4--6--------6-7--11-7--
G ---------------------------
D ---------------------------
A ---------------------------
E ---------------------------


VERSE:
 F#
Darlin' let down your hair
           B                               F#
Let those worries blow out into the summer air
 Db          Ebm       E            Db         F#
Kick up your feet and baby you can leave them there


INSTRUMENTAL:               

E --9-11-9----|
B ---------11-|
G ------------|
D ------------|
A ------------|
E ------------|

   Db Ebm E      Db F# 
E ----------4h6p4------------
B -2--4--6--------6-7--11-7--
G ---------------------------
D ---------------------------
A ---------------------------
E ---------------------------


VERSE:
 F#
Darlin' lets take our queues
           B
From the clouds in the sky blowing by 
                   F#
Without a thing to do.
Db         Ebm       E           Db       F#
Nowhere to wait but wasting this day with you


CHORUS:
      Db           F#
We're all right whatever may be
B                  F#
I got you and baby you got me

      Db             F#
We're all right, whatever we do
 B
You got me baby, 
F#            Db  F#
And I got you to.


INSTRUMENTAL:               

E --9-11-9----|
B ---------11-|
G ------------|
D ------------|
A ------------|
E ------------|

   Db Ebm E      Db F# 
E ----------4h6p4------------
B -2--4--6--------6-7--11-7--
G ---------------------------
D ---------------------------
A ---------------------------
E ---------------------------


VERSE:
 F#
Darlin' we got it made
     B
The kids are at your moma's 
                            F#
And baby all the bills are paid
Db          Ebm    E          Db           F#
How bout' a kiss, honey I'll meet you half way


CHORUS:
      Db           F#
We're all right whatever may be
B                  F#
I got you and baby you got me

      Db             F#
We're all right, whatever we do
 B
You got me baby, 
F#          Db  F#
And I got yooou to.


INSTRUMENTAL:

   Db  
E -4---6-4------
B -6-------6----
G -6---------6--
D -6------------
A -4------------
E -4------------ 

   B  
E -2---6-4------
B -4-------6----
G -4---------6--
D -4------------
A -2------------
E -2------------ 

   F#   
E -2---6-4------
B -2-------6----
G -3---------6--
D -4------------
A -4------------
E -2------------ 

   Db  
E -4---6-4------
B -6-------6----
G -6---------6--
D -6------------
A -4------------
E -4------------ 

   B  
E -2---6-4------
B -4-------6----
G -4---------6--
D -4------------
A -2------------
E -2------------ 

   F#   
E -2---6-4------
B -2-------6----
G -3---------6--
D -4------------
A -4------------
E -2------------ 

   Db  F#
E -4---2-------
B -6---2--------
G -6---3--------
D -6---4---------
A -4---4---------
E -4---2--------- 


    F#                 B              F#                                               
E --9-11-9----|-9-11-9-------------------------
B ---------11-|--------7-9-7--7h9p7------11-7--
G ------------|---------------------8-6--------
D ------------|--------------------------------
A ------------|--------------------------------
E ------------|--------------------------------

   Db Ebm E      Db F# 
E ----------4h6p4------------
B -2--4--6--------6-7--11-7--
G ---------------------------
D ---------------------------
A ---------------------------
E ---------------------------


CHORUS:
      Db           F#
We're all right whatever may be
B                  F#
I got you and baby you got me

      Db             F#
We're all right, whatever we do
 B
You got me baby, 
      F#            
And I got you to.

      Db
We're all right 
 F#
Happy and free 
B                  F#
I got you and baby you got me

      Db
We're all right 
 F#
Nothing to lose, 
 B
You got me baby
F#          Db      F#
And I got yooou to.

    F#   
E --9-11-9-----
B ---------11--
G -------------
D -------------
A -------------
E ------------- 

    F#   
E --9-11-9-----
B ---------11--
G -------------
D -------------
A -------------
E ------------- 

    F#     F#
E --9-11-9------2-
B -------------2--
G ------------3---
D -----------4----
A ----------4-----
E ---------2------ 


OUTRO:
            B  
E -6-4------2--
B -----6----4--
G -------6--4--
D ----------4--
A ----------2--
E ----------2-- 

            F#  
E -6-4------2--
B -----6----2--
G -------6--3--
D ----------4--
A ----------4--
E ----------2-- 

            Db  
E -6-4------4--
B -----6----6--
G -------6--6--
D ----------6--
A ----------4--
E ----------4-- 

            B  
E -6-4------2--
B -----6----4--
G -------6--4--
D ----------4--
A ----------2--
E ----------2-- 

              F#  
E -4-6-4------2--
B -------6----2--
G ---------6--3--
D ------------4--
A ------------4--
E ------------2-- 

            Db  Db F#
E -6-4------4---4--2-
B -----6----6---6--2-
G -------6--6---6--3-
D ----------6---6--4-
A ----------4---4--4-
E ----------4---4--2- 
  
F#  B  F#

0 comments: