La Ballata Delleroe Chords by Fabrizio De André

La Ballata Delleroe Chords by Fabrizio De André

[Intro]
Am

[Verse 1]
Am     Dm  G            C
Era partito per fare la guerra,
Dm               Am  F         E  
per dare il suo aiuto alla sua terra.
Am          Dm  G                 C
Gli avevano dato le mostrine e le stelle
Dm                Am    E        Am  
e il consiglio di vender cara la pelle.

[Verse 2] 
G7           C      G           C
E quando gli dissero di andare avanti
Dm         Am Dm              Am  F        E E7 
troppo lontano si spinse a cercare la verità.   

e|-----------|
B|-----------|
G|-----------|
D|-2-0-------|
A|-----3-2-0-|
E|-----------|

Am        Dm   G             C 
Ora che è morto la patria si gloria
Dm          Am E       Am 
d'un altro eroe alla memoria.

[Instrumental]
   Am      Dm      G       C     Dm      Am    F       E
e|---0-0-0-1-1---1-3-3---1-0-0-------0-------------------|
B|---------------------------------3---3-1-1-------0-1-0-|
G|-----------------------------------------------2-------|
D|---------0---------------------0-----------------------|
A|-0-----------------------3-------------0---------------|
E|-----------------3---------------------------1-------0-|

   Am      Dm      G       C     Dm      Am    E       Am 
e|---0-0-0-1-1---1-3-3---1-0-0-------0-------------------|
B|---------------------------------3---3-1-1-----0-1-0---|
G|-----------------------------------------------------2-|
D|---------0---------------------0-----------------------|
A|-0-----------------------3-------------0-------------0-|
E|-----------------3---------------------------0---------|

[Verse 3]
G7             C   G               C
Ma lei che lo amava aspettava il ritorno
Dm           Am   Dm         Am   F          E  E7
d'un soldato vivo, d'un eroe morto che ne farà?

e|-----------|
B|-----------|
G|-----------|
D|-2-0-------|
A|-----3-2-0-|
E|-----------|

Am              Dm   G                C
se accanto nel letto, le è rimasta la gloria
Dm       Am   E       Am 
d'una medaglia alla memoria.

[Outro]
   Am      Dm      G       C     Dm      Am    E       Am 
e|---0-0-0-1-1---1-3-3---1-0-0-------0-------------------|
B|---------------------------------3---3-1-1-----0-1-0---|
G|-----------------------------------------------------2-|
D|---------0---------------------0-----------------------|
A|-0-----------------------3-------------0-------------0-|
E|-----------------3---------------------------0---------|

0 comments: