Eyes Closed Chords by Halsey

Eyes Closed Chords by Halsey

Capo: 2

  Bm7 Bm  A6   A6  G   Em
e|2---2--(0)---2---3---0---|
B|3---3---2----2---0---0---|
G|2---4---2-or-2---0---0---|
D|4---4---4----2---0---2---|
A|2---2---0----0---2---2---|
E|-----------------3---0---|


[Intro]
  Bm7                               A6
e|--10--10--10--10|--10--10--10--10|--9---9---9---9-|--9---9---9---9-|
B|--10--10--10--10|--10--10--10--10|--10--10--10--10|--10--10--10--10|
G|----------------|----------------|----------------|----------------|
D|----------------|----------------|----------------|----------------|
A|----------------|----------------|----------------|----------------|
E|----------------|----------------|----------------|----------------|
 |
e|----------------|----------------|----------------|----------------|
B|----------------|----------------|----------------|------10--------|
G|------11----14--|------11--------|------11----14--|----------------|
D|----------------|----------------|----------------|----------------|
A|----------------|----------------|----------------|----------------|
E|----------------|----------------|----------------|----------------|

  G                Em                                Bm7
e|--7---7---9---7-|--7---7---7---7-|--10--10--10--10|--10--10--10--10|
B|--8---8---8---8-|--8---8---8---8-|--10--10--10--10|--10--10--10--10|
G|----------------|----------------|----------------|----------------|
D|----------------|----------------|----------------|----------------|
A|----------------|----------------|----------------|----------------|
E|----------------|----------------|----------------|----------------|
 |
e|----------------|--------7---9-7-|9-10------------|----------------|
B|----------------|----------------|----------------|----------------|
G|------11----14--|----------------|----------------|----------------|
D|----------------|----------------|----------------|----------------|
A|----------------|----------------|----------------|----------------|
E|----------------|----------------|----------------|----------------|


[Verse 1]
Bm               A 
I know where to lay
               G   Em 
I know what to say
             Bm
It's all the same
    Bm               A
And I, I know how to play
                G    Em
Have nowhere to stay
             Bm
It's all the same


[Chorus]
    Bm                                          A
Now if I keep my eyes closed he looks just like you
                G   Em           Bm         
But he'll never stay, they never do
    Bm                                          A 
Now if I keep my eyes closed he feels just like you
                G                     Em                Bm
But you've been replaced, I'm face to face with someone new


[Verse 2]
Bm                                       A
Would've gave it all for you, cared for you

So tell me where I went wrong
G                        Em             Bm
Would've gave it all for you, cared for you
Bm                                       A
Would've trade it all for you, there for you

So tell me how to move on
G                         Em             Bm
Would've trade it all for you, cared for you


[Chorus]
    Bm                                          A
Now if I keep my eyes closed he looks just like you
                G   Em           Bm         
But he'll never stay, they never do
    Bm                                          A 
Now if I keep my eyes closed he feels just like you
                G                     Em                Bm
But you've been replaced, I'm face to face with someone new


[Bridge]
  N.C
e|---------2h5p2----2--2---------------------------------------2h5p2-------------|
B|---3-h5--------3-----3---2---2---2---2h3p2-2-----------3--h5-------3-5-----3~--|
G|4--------------------4---2-----2-------------2---0-2h4-------------------4-----|
D|-----------------------------------------------0-------------------------------|
A|-------------------------------------------------------------------------------|
E|-------------------------------------------------------------------------------|

N.C.
They don't realise that I'm thinking about you
N.C.
It's nothing new, it's nothing new


[Chorus]
    Bm                                          A
Now if I keep my eyes closed he looks just like you
                G   Em           Bm         
But he'll never stay, they never do
    Bm                                          A 
Now if I keep my eyes closed he feels just like you
                G                     Em                Bm
But you've been replaced, I'm face to face with someone new

[Outro]

e|---------2h5p2----2--2-------------------------------------------------0-------|
B|---3-h5--------3-----3---2---2---2---2h3p2-2-------------------------------3~--|
G|4--------------------4---2-----2-------------2---0-2h4---0---0-----0h2---------|
D|-----------------------------------------------0-----------0---0---------------|
A|-------------------------------------------------------------------------------|
E|-------------------------------------------------------------------------------|

e|-2h5p2---2----------|
B|-------3------------|
G|--------------------|
D|--------------------|
A|--------------------|
E|--------------------|



***********************************

| h   Hammer-on
| p   Pull-off
| ()  Optional chord note
| ~   Vibrato

***********************************

0 comments: