Bad At Love Chords by Halsey

Bad At Love Chords by Halsey

  FM  Am  G   C   FM
e|1---5---3---3---0---|
B|1---5---3---5---1---|
G|2---5---4---5---2---|
D|3---7---5---5---3---|
A|3---7---5---3---3---|
E|1---5---3-------1---|


[Intro]
Am
Ohh...

  F           Am   G                F           Am   G       C
e|8---8---8---8---|7---7---7---7---|8---8---8---8---|8---8---12--12--|
B|10--10--10--10--|8---8---8---8---|10--10--10--10--|10--10--13--13--|
G|----------------|----------------|----------------|----------------|
D|----------------|----------------|----------------|----------------|
A|----------------|----------------|----------------|----------------|
E|----------------|----------------|----------------|----------------|
 |
e|----------------|----------------|----------------|----------------|
B|----------------|----------------|----------------|--------5-------|
G|2-----------5---|4------------5p4|2-----------5---|4---------------|
D|----------------|----------------|----------------|----------------|
A|----------------|----------------|----------------|----------------|
E|----------------|----------------|----------------|----------------|


[Verse 1]
      F                     Am
Got a boy back home in Michigan
       G 
And it tastes like Jack when I'm kissing him
     F                                      Am
So I told him that I never really liked his friends
         G                          C
Now he's gone and he's calling me a bitch again
       F                           Am
It's a guy that lives in a garden state
       G 
And he told me that we'd make it 'til we graduate
     F                                      Am
So I told him the music would be worth the wait
       G                              C
But he wants me in the kitchen with a dinner plate


[Pre-Chorus]
    F                                 Am
I believe, I believe, I believe, I believe
           G
That we're meant to be
          F                             Am
But jealousy, jealousy, jealousy, jealousy
         G          C
Gets the best of me
      F                          Am
Look, I don't mean to frustrate, but I
G
Always make the same mistakes, yeah
F                              Am   G  C
Always make the same mistakes 'cause


[Chorus]
  FM          Am   G                FM          Am   G       C
e|----------------|----------------|----------------|----------------|
B|13--------------|12--------------|------------13--|----------------|
G|14--------------|12--------------|----------------|12--------------|
D|14--------------|12--------------|14--------------|----------------|
A|----------------|----------------|----------------|----------------|
E|----------------|----------------|----------------|----------------|

           FM    Am  G
I'm bad at love (ooh-ooh)
                           FM
But you can't blame me for tryin'
         Am     G
You know I'd be lyin' sayin'
C            FM   Am  G
You were the one (ooh-ooh)
                   FM
That could finally fix me
        Am    G
Lookin' at my history
    C      FM
I'm bad at love


[Verse 2]
      F
Got a girl with California eyes
Am     G
 And I thought that she could really be the one this time
      F                                  Am
But I never got the chance to make her mine
            G                        C
Because she fell in love with little thin white lines
F                         Am
London girl with an attitude
         G
We never told no one but we look so cute
F                              Am
Both got way better things to do
      G                              C
But I always think about it when I'm riding through


[Pre-Chorus]
    F                                 Am
I believe, I believe, I believe, I believe
           G
That we're meant to be
          F                             Am
But jealousy, jealousy, jealousy, jealousy
         G          C
Gets the best of me
      F                          Am
Look, I don't mean to frustrate, but I
G
Always make the same mistakes, yeah
F                              Am   G6  C
Always make the same mistakes 'cause


[Chorus]
           FM    Am  G
I'm bad at love (ooh-ooh)
                           FM
But you can't blame me for tryin'
         Am     G
You know I'd be lyin' sayin'
C            FM   Am  G
You were the one (ooh-ooh)
                   FM
That could finally fix me
        Am    G
Lookin' at my history
    C      FM    Am  G
I'm bad at love (ooh-ooh)
         FM              Am G
Oh, you know, you know, you know
    C      FM    Am  G
I'm bad at love (ooh-ooh)
           FM    Am  G    C
I'm bad at love (ooh-ooh)

e|------------------------|
B|13----12----------------|
G|---12----12-14-12----12-|
D|------------------14----| x16
A|------------------------|
E|------------------------|


[Bridge]

e|------17----20---------------------------------17-----20----------------------------17----20----|
B|20---------------------------------------17--------------------------17-18----20----------------|
G|---------------------------------16-17----------------------------19----------------------------|
D|------------------------------19----------------------------------------------------------------|
A|------------------------------------------------------------------------------------------------|
E|------------------------------------------------------------------------------------------------|

F                     Am    G 
  I know that you're afraid
                    F
I'm gonna walk away
                      Am    G
Each time the feeling fades
              C             F
Each time the feeling fades
                    Am    G
I know that you're afraid
                    F
I'm gonna walk away
                      Am    G
Each time the feeling fades


[Chorus]
           FM    Am  G
I'm bad at love (ooh-ooh)
                           FM
But you can't blame me for tryin'
         Am     G
You know I'd be lyin' sayin'
C            FM   Am  G
You were the one (ooh-ooh)
                   FM
That could finally fix me
        Am    G
Lookin' at my history
    C      FM    Am  G
I'm bad at love (ooh-ooh)
         FM              Am G
Oh, you know, you know, you know
    C      FM    Am  G
I'm bad at love (ooh-ooh)
           FM    Am  G    C
I'm bad at love (ooh-ooh)
FM Am G
Oh,   oh

0 comments: