Lie Chords by Halsey

Lie Chords by Halsey

Capo 1

  B5  GM Esus2 B5  GM  Em9 Bm     Gdim G Esus2 E5  B5
e|14--2---2----2---2---2---2---------------------------|
B|12--0---0----0--(3)--0---3---------------------------|
G|----0------------4---0---4-or-4------------------4---|
D|--------2--------5---2---4----4----------4---2--(4)--|
A|-------------2------(2)--2----5--4---2--(2)-(2)--2---|
E|-----------------3---0--------7--3---3---0---0-------|



[Intro]
  B5
e|14--14--14--14--|14--14--14--14--|14--14--14--14--|14--14--14--14--|
B|12--12--12--12--|12--12--12--12--|12--12--12--12--|12--12--12--12--|
G|----------------|----------------|----------------|----------------|
D|----------------|----------------|----------------|----------------|
A|----------------|----------------|----------------|----------------|
E|----------------|----------------|----------------|----------------|


[Verse 1]
  GM               Esus2            B5
e|2---2---2---2---|2---2---2---2---|2---2---2---2---|2---2---2---2---|
B|0---0---0---0---|0---0---0---0---|0---0---0---0---|0---0---0---0---|
G|0---------------|----------------|----------------|----------------|
D|----------------|2---------------|----------------|----------------|
A|----------------|----------------|2---------------|----------------|
E|----------------|----------------|----------------|----------------|


GM                                   Esus2
   Breakfast is cold, as cold as our bed (oh)
                                               B5
I'm watching you choke down the words that you said

I watch you devour, mistake me for bread (oh)
                                    GM 
Well boy, is you fed? Or are you misled?

I gave you the messiest head
    Esus2
You give me the messiest head
                   B5
Oh, you're turnin' red

'Cause I'm tryna give the impression that I get the message you wish I was dead


[Pre-Chorus]
GM                        Em9              Bm
   See you 'bouta break a sweat aye aye aye

I won't let us finish yet aye aye aye
GM                             Em9                Bm
   Please don't take this as a threat aye aye aye

All I'm sayin' is if you don't love me no more then why


[Chorus]
 GM   Em9  Bm
Lie, lie
 GM   Em9  Bm
Lie, lie


[Verse 2]
  Gdim    G        Esus2   E5       B5
e|----------------|----------------|----------------|----------------|
B|----------------|----------------|----------------|----------------|
G|----------------|----------------|4---------------|----------------|
D|----------------|4-------2-------|----------------|----------------|
A|4-------2-------|----------------|2---------------|----------------|
E|3---3---3-------|0---0---0-------|----------------|----------------|

     Gdim   G
(Quavo)
  G                  Esus2           E5
I heard what you said (what she say?)
                         B5
You talk about your head game (oh)

I know that it's fire flame (fire)
                       Gdim
Your mouth make a hurricane (splash)
    G                 Esus2
You notice that we in love (love)
       E5                  B5
That's something we cannot change (no)

It's the plans we should arrange (plans)
                                 Gdim
Treat her right and she won't complain (yeah)
               G                    Esus2
Bring back the title (bring it back)
                  E5           B5
She tall like the Eiffel (yeah)

Got no one to lie to (no)
                                    Gdim
There's no need to lie no more (ayy)
           G            Esus2
Bring me a trial (bring)
             E5          B5
Every move's vital (ooh)

What you gon' die for

When every day you told lies, alright?


[Chorus: Halsey]
 GM   Em9  Bm
Lie, lie
 GM   Em9  Bm
Lie, lie
 GM   Em9  Bm
Lie, lie
 GM   Em9  Bm
Lie, lie

0 comments: