Walls Could Talk Chords by Halse

Walls Could Talk Chords by Halsey

                                       Capo 1st fret fingerings:
 
   B- G7/D Cm  Bb5 AbM Db  Fm  G     B- G7/D Cm  Bb5 AbM Db  Fm  G
e|---------------------1---3--(3)--|---------------------0---2--(2)--|
B|-----3---4-------4---1---1---3---|-----2---3-------3---0---0---2---|
G|(4)--4---5-------5---1---1---4---|(3)--3---4-------4---0---0---3---| (optional notes in parentheses)
D|-3---3-- 5---3---5---3---1---5---|-2---2---4---2---4---2---0---4---|
A|-2---5---3---1-------4---3---5---|-1---4---2---0-------3---2---4---|
E|-----------------4-------1---3---|-----------------3-------0---2---|


[Verse 1]
  B- G7/D Cm       B- G7/D Cm       B- G7/D Cm       B-  G7/DCm
e|----------------|----------------|----------------|----------------|
B|----------------|----------------|----------------|----------------|
G|----------------|----------------|----------------|----------------|
D|3---3b--1-------|3---3b--1-------|3---3b--1-------|3---3b--1-------|
A|2---5b--3-------|2---5b--3-------|2---5b--3-------|2---5b--3-------|
E|----------------|----------------|----------------|----------------|

          B-     G7/D         Cm
Been about three days and I'm comin' back
         B-    G7/D          Cm
I'm about four minutes from a heart attack
           B-   G7/D      Cm
And I think you make me a maniac
              B-   G7/D Cm
But you don't know, oh- oh
B-   G7/D         Cm
 Two years and we in between
           B-    G7/D          Cm
But we both been here since we seventeen
           B-    G7/D       Cm
Here we go, fist fight in a limousine
               B- G7/D Cm
But they don't kn- oh- ow


[Pre-Chorus]
Bb5         AbM
And we both hope there's something
          DbM
But we bo-both keep fronting
           Fm9
And it's a closed discussion
        G7/D                      G
And I'm thinking, "Damn, if these walls could talk"


[Chorus]
 B- G7/D Cm
(Oh- oh- oh) Well, they'd be like
 B- G7/D Cm
(Oh- oh- oh) "Shit is crazy right?"
 B- G7/D Cm                       B- G7/D Cm
(Oh- oh- oh) I ain't your baby no mo- oh- ore


[Verse 2]
          B-   G7/D            Cm
Been about two weeks since you went away
         B-   G7/D          Cm
I'm about halfway through a Cabernet
         B-    G7/D      Cm
And I go, "I'm wastin' a Saturday
           B- G7/D Cm
Sittin' at ho- ho- ome
           B-   G7/D        Cm
Told my new roommate not to let you in
             B-    G7/D        Cm
But you're so damn good with a bobby pin
            B-    G7/D      Cm
Now you gon' play me like a violin
              B- G7/D Cm
Hittin' these no- oh- otes


[Pre-Chorus]
Bb5         AbM
And we both hope there's something
          DbM
But we bo-both keep fronting
           Fm9
And it's a closed discussion
        G7/D                      G
And I'm thinking, "Damn, if these walls could talk"


[Chorus]
 B- G7/D Cm
(Oh- oh- oh) Well, they'd be like
 B- G7/D Cm
(Oh- oh- oh) "Shit is crazy right?"
 B- G7/D Cm                       B- G7/D Cm
(Oh- oh- oh) I ain't your baby no mo- oh- ore
 B- G7/D Cm
(Oh- oh- oh) Hey!
 B- G7/D Cm
(Oh- oh- oh) No more
 B- G7/D Cm                       B- G7/D Cm
(Oh- oh- oh) I ain't your baby no mo- oh- ore

[Outro]
AbM
DbM
Fm9
G7/D G

0 comments: