A Million Dreams Chords by The Greatest Showman

A Million Dreams Chords by The Greatest Showman

[Verse 1]
G          D/F#           Em
I close my eyes and I can see
                 C              G
The world that's waiting up for me
       D/F#    C
That I call my own
G           D/F#              Em
Through the dark, through the door
              C             G
Through where no one's been before
       D/F#       C
But it feels like home


[Pre-Chorus]
D             Em                         C
They can say, they can say it all sounds crazy
D             Em                         C
They can say, they can say I've lost my mind
D             Em                        C
I don't care, I don't care, so call me crazy
D             Em               C
We can live in a world that we design


[Chorus]
       G
'Cause every night I lie in bed
    D/F#
The brightest colors fill my head
  Am                            C
A million dreams are keeping me awake
  G
I think of what the world could be
  D/F#
A vision of the one I see
  Am                               C
A million dreams is all it's gonna take
  C (hold)
A million dreams for the world we're gonna make


[Verse 2]
G         D/F#         Em
There's a house we can build
      C              G
Every room inside is filled
     D/F#            C
With things from far away
G           D/F#     Em
The special things I compile
         C                 G
Each one there to make you smile
     D/F#  C
On a rainy day


[Pre-Chorus]
D             Em                         C
They can say, they can say it all sounds crazy
D             Em                          C
They can say, they can say we've lost our minds
D             Em                           C
I don't care, I don't care if they call us crazy
D             Em           C
Runaway to a world that we design


[Chorus]
G
Every night I lie in bed
    D/F#
The brightest colors fill my head
  Am                            C
A million dreams are keeping me awake
  G
I think of what the world could be
  D/F#
A vision of the one I see
  Am                               C
A million dreams is all it's gonna take
  C (hold)
A million dreams for the world we're gonna make


[Bridge]
Em      Emmaj7       Em7
However big, however small
          A9         C
Let me be part of it all
C
Share your dreams with me
Em         Emmaj7            Em7
You may be right, you may be wrong
                    A9       C
But say that you'll bring me along
C
To the world you see
C
To the world I close my eyes to see
C
I close my eyes to see


[Chorus]
G
Every night I lie in bed
    D/F#
The brightest colors fill my head
  Am                            C
A million dreams are keeping me awake
(C)
A million dreams, a million dreams
  G
I think of what the world could be
  D/F#
A vision of the one I see
  Am                               C
A million dreams is all it's gonna take
  C                                        G      G/F#    Em    C/G (hold into outro)
A million dreams for the world we're gonna make


[Outro]
                               Cadd9
For the world we're gonna make


 

I'll front and say idk what's going on with the C's in the bridge but they're basically tiny variations on
that chord

Also here's the little guitar thing that happens:

E|--------------------------------------------------------------------------------------------------|
B|-----------------------------------------------------3-----3-----3-----3-----------------1-----0--|
G|-----4-----4-----4-----4-----2-----2-----2-----2-----------------------------0-----0--------------|
D|--5-----5-----5-----5-----4-----4-----4-----4-----2-----2-----2-----2-----------------------------|
A|--------------------------------------------------------------------------3-----3-----3-----3-----|
E|--------------------------------------------------------------------------------------------------|

E|--------------------------------------------------------------------------------------------------|
B|-----------------------------------------3-----------------------------------------------1-----0--|
G|-----4-----4-----4-----4-----2-----2-----------2-----0-----0-----0-----0-----0-----0--------------|
D|--5-----5-----5-----5-----4-----4-----4-----4-----------------------------------------------------|
A|--------------------------------------------------3-----3-----3-----3-----3-----3-----3-----3-----|
E|--------------------------------------------------------------------------------------------------|

0 comments: